Drift Away Dobie Gray

Discussion started by Adam Rangihana 1 week ago

A Bm D E


Drift Away  Dobie Gray






 

CAPO 2nd Fret

INTRO 

 

 
G:--------|--------|
D:--------|--------|
A:--------|--------|
E:--------|------7\| (slide from 7th fret to open E string)


 

VERSE 

D Day after day I'm more confusAed

D Yet I look for the Elight in the pouring Arain

D You know that's a game that I hate to Alose

Bm I'm feelin' the strain D ain't it a shame

 

D A D E A D A Bm D  

 
G:--------|--------|--------|--------|--------|--------|--------|--------|
D:--------|--------|--------|--------|--------|--------|-------1|2--22---|
A:--------|2--22---|--------|2--22---|--------|2--22--6|4--44---|--------|
E:0--00---|-------2|0---2---|-------2|0--00---|--------|--------|--------|


 

CBORUS 

Oh, Agimme the beat, boys, and Afree my soul

I Ewanna get lost in your Erock and roll and Ddrift away

Oh, Agimme the beat, boys, and Afree my soul

I Ewanna get lost in your Erock and roll and Ddrift awayD

 

A E D A E D D D D  

 
G:--------|--------|--------|--------|--------|--------|--------|--------|--------|
D:-------2|4-4-4-43|2-2-2-2-|-------2|4-4-4-43|2-2-2-2-|2-------|--------|--------|
A:2-2-2-2-|-4-4-4--|-2-2-2-4|2-2-2-2-|-4-4-4--|-2-2-2-2|-4-2---2|2-------|--------|
E:-2-2-2--|--------|--------|-2-2-2--|--------|--------|----424-|--------|------7\|


 

VERSE 

D Beginning to think that I'm wastin' Atime

D I don't underEstand the things I Ado

D The world outside looks so unAkind

Bm I'm countin' on you D to carry me through

 

D A D E A D A Bm D  

 
G:--------|--------|--------|--------|--------|--------|--------|--------|
D:--------|--------|--------|--------|--------|--------|-------1|22222222|
A:--------|2--22---|--------|2--22---|--------|2--22--6|4--44---|--------|
E:0--00---|-------2|0---2---|-------2|0--00---|--------|--------|--------|


 

CBORUS 

Oh, Agimme the beat, boys, and Afree my soul

I Ewanna get lost in your Erock and roll and Ddrift away

Oh, Agimme the beat, boys, and Afree my soul

I Ewanna get lost in your Erock and roll and Ddrift awayD

Tab from: bttp://www.guitartabs.cc/tabs/d/dobie_gray/drift_away_btab_ver_2.btml  

A E D A E D D D D  

 
G:--------|--------|--------|--------|--------|--------|--------|--------|--------|
D:-------2|4-4-4-43|2-2-2-2-|-------2|4-4-4-43|2-2-2-2-|2-------|--------|--------|
A:2-2-2-2-|-4-4-4--|-2-2-2-4|2-2-2-2-|-4-4-4--|-2-2-2-2|-4-2---2|2-------|-------6|
E:-2-2-2--|--------|--------|-2-2-2--|--------|--------|----424-|--------|--------|


 

BRIDGE (Single strum each)

Bm And when my mind is free

D You know a melody can Amove me

Bm And when I'm feelin' blue

D The guitar's comin' through to Esoothe me

 

Bm D A Bm D E  

 
G:--------|--------|--------|--------|--------|--------|
D:-------1|2------2|--------|-------1|2------2|4-------|
A:4-------|--------|2------6|4-------|--------|--------|
E:--------|--------|--------|--------|--------|------7\|


 

VERSE 

D Thanks for the joy that you've given Ame

D I want you to Eknow I believe in your Asong

D Rhythm and rhyme and harmonAy

Bm You help me along D makin' me strong

 

D A D E A D A Bm D  

 
G:--------|--------|--------|--------|--------|--------|--------|--------|
D:--------|--------|--------|--------|--------|--------|-------1|2--22---|
A:--------|2--22---|--------|2--22---|--------|2--22--6|4--44---|--------|
E:0--00---|-------2|0---2---|-------2|0--00---|--------|--------|--------|


 

CBORUS 

(Single strums, quietly)

Oh, Agimme the beat, boys, and Afree my soul

I Ewanna get lost in your Erock and roll and Ddrift awayD

Oh, Agimme the beat, boys, and Afree my soul

I Ewanna get lost in your Erock and roll and Ddrift awayD

 

A E D D A E D D  

 
G:--------|--------|--------|--------|4~~~~~~~|3~~~~~~~|1~~~~~~-|--------|
D:--------|--------|--------|--------|--------|--------|-------4|2-------|
A:2~~~~~~~|--------|--------|--------|--------|--------|--------|-4-2---2|
E:--------|2~~~~~~~|0~~~~~~~~~~~~~~~~|--------|--------|--------|----424-|


 

CBORUS 

(Normal strumming) (Repeat and Fade)

Oh, Agimme the beat, boys, and Afree my soul

I Ewanna get lost in your Erock and roll and Ddrift awayD

 

A E D D  

 
G:--------|--------|--------|--------|
D:-------2|4-4-4-43|2-2-2-2-|2-------|
A:2-2-2-2-|-4-4-4--|-2-2-2-2|-4-2---2|
E:-2-2-2--|--------|--------|----424-|





You need to be a member of this group before you can participate in this discussion.